管我吉他谱


歌手分类:Beyond吉他谱     供谱者:niuniu     点击:次      放入谱架

管我

intro1

gtr1
e |-----------|-----------|---------------|------------------------|
B |-----------|-----------|---------------|------------------------|
G |-----------|-----------|---------------|------------------------|
D |-----------|-----------|---------------|--------------5---------|
A |-0-0-2-0-3-|-0-0-2-0-3-|-0-0-2-0-3-0-0-|-0-0-2-0--5-7---5-7-5---|
E |-----------|-----------|---------------|----------------------8-|

 


intro2

 

gtr1
e |---------------|---------------|---------------|-------|
B |---------------|---------------|---------------|-------|bend all notes by 1/4
G |---------------|---------------|---------------|-------|
D |-7-9-7---------|-7-9-7---------|-7-9-7---------|-7-9-7-|
A |-------9-7---9-|-------9-7-----|-------9-7---9-|-------|
E |-----------8---|-----------8~~-|-----------8---|-------|

gtr2
e |-5-7-5---------|-5-7-5---------|-5-7-5---------|-5-7-5-|
B |-------7-5---7-|-------7-5-----|-------7-5---7-|-------|bend all notes by 1/4
G |-----------5---|-----------5~~-|-----------5---|-------|
D |---------------|---------------|---------------|-------|
A |---------------|---------------|---------------|-------|
E |---------------|---------------|---------------|-------|

 

gtr1
e |-----3---------|
B |-3-5---3-5-3---|
G |-------------5-|
D |---------------|
A |---------------|
E |---------------|

gtr2
e |---------------|
B |---------------|
G |---------------|
D |-----5---------|
A |-5-7---5-7-5---|
E |-------------8-|


-----------------------------------------------------------------------------------------


verse1


gtr1
e |---------------------------------|---------------------------------------|
B |---------------------------------|---------------------------------------|
G |---------------------------------|---------------------------------------|
D |-5-7--7-7-5-5--5h7p5-4-5-4-5-4^^-|-5-7--7-7-5-5--5h7p5-4-5-------4-------|
A |---------------------------------|-------------------------4-5-7---4-5---|
E |---------------------------------|-------------------------------------5-|

 

gtr1
e |---------------------------------|---------------------------------------|
B |---------------------------------|---------------------------------------|
G |---------------------------------|---------------------------------------|
D |-5-7--7-7-5-5--5h7p5-4-5-4-5-4^^-|-5-7--7-7-5-5--5h7p5-4-5-------4-------|
A |---------------------------------|-------------------------4-5-7---4-5---|
E |---------------------------------|-------------------------------------5-|

gtr2
e |---------------------------------|---------------------------------------|
B |---------------------------------|-------------------------------7-------|
G |---------------------------------|-------------------------6-7-9---6-7---|
D |---------------------------------|-------------------------------------7-|
A |---------------------------------|---------------------------------------|
E |---------------------------------|---------------------------------------|


-----------------------------------------------------------------------------------------


verse2


gtr1
e |---------|-----2---|---------|---------|
B |---------|-------2-|---------|---------|
G |-7-------|---------|---------|---------|
D |-7-------|-4-------|-5-------|-7-------|
A |-5-------|-4-------|-5-------|-7-------|
E |---------|-2-------|-3-------|-5-------|

gtr2
e |---------|---------|--------------------------|
B |---------|---------|------------------5-------|
G |---------|---------|-4-6-6-6--4-6-4-6---6-4-6-|
D |---------|---------|--------------------------|
A |---------|---------|--------------------------|
E |---------|---------|--------------------------|

 

gtr1
e |---------|-----2---|---------|---------|
B |-----5---|-------2-|---------|---------|
G |-7-----7-|---------|---------|---------|
D |-7-------|-4-------|-5-------|-7-------|
A |-5-------|-4-------|-5-------|-7-------|
E |---------|-2-------|-3-------|-5-------|

gtr2
e |---------|---------|---------|-------------------------10----------------|
B |---------|---------|---------|-12-12-12-12-12-12-10-12----12-10-------12-|
G |---------|---------|---------|----------------------------------11-------|
D |---------|---------|---------|-------------------------------------12----|
A |---------|---------|---------|-------------------------------------------|
E |---------|---------|---------|-------------------------------------------|


-----------------------------------------------------------------------------------------


chorus


gtr1
e |-------------|-----------------------|
B |-------------|-----------------------|
G |-------------|-----------------------|
D |-7-7-7-7-7-7-|-5-5-5-5-----5---------|
A |-7-7-7-7-7-7-|-5-5-5-5-5-7---5-7-5---|
E |-5-5-5-5-5-5-|-3-3-3-3-------------8-|


gtr1
e |-------------|-----------------------|
B |-------------|-----------------------|
G |-------------|-----------------------|
D |-7-7-7-7-7-7-|-5-5-5-5-----5---------|
A |-7-7-7-7-7-7-|-5-5-5-5-5-7---5-7-5---|
E |-5-5-5-5-5-5-|-3-3-3-3-------------8-|

 

-----------------------------------------------------------------------------------------

 

repeat intro2

repeat verse1 & 2


-----------------------------------------------------------------------------------------


chorus2


gtr1
e |-------------|-----------------------|
B |-------------|-----------------------|
G |-------------|-----------------------|
D |-7-7-7-7-7-7-|-5-5-5-5-----5---------|
A |-7-7-7-7-7-7-|-5-5-5-5-5-7---5-7-5---|
E |-5-5-5-5-5-5-|-3-3-3-3-------------8-|


gtr1
e |-------------|-----------------------|
B |-------------|-----------------------|
G |-------------|-----------------------|
D |-7-7-7-7-7-7-|-5-5-5-5-----5---------|
A |-7-7-7-7-7-7-|-5-5-5-5-5-7---5-7-5---|
E |-5-5-5-5-5-5-|-3-3-3-3-------------8-|

 

from no
 



 
更多
我要对管我吉他谱进行挑错


上一篇:The House is Rockin     下一篇:多得你少

推荐
(0)
0%
踩砸
(0)
0%

×