昨天吉他谱


歌手分类:mr吉他谱     供谱者:GTP.me     点击:次      放入谱架

 …………昨天TXT吉他谱…………

1D#
2A#
3F#
4C#
5G#
6D#

砖块裂了色褪掉以往飞走了

d      a     bm   #fm

墙角处坐下有多逍遥

g       a      d

飘泊在这天与地有各色奥妙

d       a     c         b

如蚂蚁却总不觉少

g            a    

忘记吗幻想坐太空船

bm   #FM     a   e

和谁曾度过风花雪月

bm    #FM    a   e

还记着吉他的和弦也许余情未了

g                    a

可笑多么可笑自觉渺小

bm     g    a     d   

还说笑不经不觉大个了多少

bm     g     a    d  

烈酒可会吃不消

bm   bBm  (#fm) 

梦想会否蒸发掉

a   e

就算坐上飞毡回未来前路会有几多条

g      a      d

  
GUitar solo 1
|------------------------------------|
|------------10----------------------|
|--9^9-7-9-7-----9-7-9^9-7-9-7-7-----|
|------------------------------------|
|------------------------------------|
|------------------------------------|


second和弦同上

但我没有飞毡你可会明白到昨天很远

g                       a 

|------10------10------10------10-------12-----12-----12-----12------|
|--------------------------------------------------------------------|
|-11-12---11-12---11-12---11-12----11-12--11-12--11-12--11-12--------|
|--------------------------------------------------------------------|
|--------------------------------------------------------------------|
|--------------------------------------------------------------------|


GUitar solo 2
|-----------------------------------7-9-10-9^9-7-9-7-|-7---7----7----7-------------------------------------------|
|-5^5-3p-5-3----------3-5^^^3-----7--7-7--7----------|10^-10^-----10^--10-7-10-7---------------------------------|
|-----------4----2-4---------------------------------|---------------------------9-7-9^9-7----------------7-7-7--|
|----------------------------------------------------|-------------------------------------9-7------7-8-9-------9|
|----------------------------------------------------|----------------------------------------9-7-9--------------|
|----------------------------------------------------|-----------------------------------------------------------|

|-----------------17^^^17---------------------|------------------------------------------------------------------|
|-17^17-15-17-15---------15--14-15------------|-----------------------7---7-10p-7--7-10p-7---7-10p-7--7-10-------|
|----------------------------------16-14-16---|----------7---7-9--7-9----9-------9---------9--------9------------|
|---------------------------------------------|--9--7--9-7-9-7-9--7-9--------------------------------------------|
|---------------------------------------------|--9--7--9---9-----------------------------------------------------|
|---------------------------------------------|------------------------------------------------------------------|


|-7-10p-7----7-10p-7----7-10p-7-----7-10p-7----7-10^10------------------|
|---------10---------10---------10----------10--------------------------|
|-----------------------------------------------------------------------|
|-----------------------------------------------------------------------|
|-----------------------------------------------------------------------|
|-----------------------------------------------------------------------|


自由自我记忆永在为何共你现已默然g        a
没改变光阴倒转若你看穿 
bm     g    a     d 
谁介意天边海角就算远一点
bm     g    a     d 
如今挣扎每一天
bm   bBm  (#fm) 
藏起眼中的困倦
a          e 
在角落里哽咽遥望从前路永在昨天
g                   a 

可笑真的可笑是我渺小 
|---------------------------------------|
|---------------------------------------|
|-4-4-4-4--------------------7-7-7------|
|-4-4-4-4--5-5-5-5--7-7-7-7--7-7-7------|
|-2-2-2-2--5-5-5-5--7-7-7-7--5-5-4------|
|----------3-3-3-3--5-5-5-5-------------|
     
还说笑不经不觉大个了多少
|---------------------------------------|
|---------------------------------------|
|-4-4-4-4--------------------7-7-7------|
|-4-4-4-4--5-5-5-5--7-7-7-7--7-7-7------|
|-2-2-2-2--5-5-5-5--7-7-7-7--5-5-4------|
|----------3-3-3-3--5-5-5-5-------------|
烈酒早已喝不少
|------------------|
|------------------|
|-4-4-4-4--4-4-4-4-|
|-4-4-4-4--4-4-4-4-|
|-2-2-2-2--1-1-1-1-|
|------------------|
梦想不会给蒸发掉
|--------------------|
|--------------------|
|2-2-2-2-------------|
|2-2-2-2--2-2-2------|
|0-0-0-0--2-2-2------|
|---------0-0-0------|
但我没法冲开人潮你只要明白了再不紧要~~
|----------------|--------------------|
|----------------|--------------------|
|----------------|--------------------|
|-5-5-5-5-5-5-5--|-7-7-7-7-7-7-7------|
|-5-5-5-5-5-5-5--|-7-7-7-7-7-7-7------|
|-3-3-3-3-3-3-3--|-5-5-5-5-5-5-5------|



 
更多
我要对昨天吉他谱进行挑错


上一篇:换画     下一篇:零秒出手独奏

推荐
(0)
0%
踩砸
(0)
0%

×